[ Новые сообщения · Участники · Правила форума · Поиск · RSS ]
Страница 1 из 11
Модератор форума: Mary_Klimova 
Форум » ALEX BAND » THE CALLING » Аккорды к песням
Аккорды к песням
MarinaRuДата: Пятница, 23.03.2012, 18:32 | Сообщение # 1
Alex forever!
Группа: Администраторы
Сообщений: 597
Награды: 0
Репутация: 502
Статус: Offline
Adrienne



Guitar 1:

Em7 D Bmsus4 C D
e---3---------2----------0-----------0----2---
B---3---------3----------3-----------1----3---
G---0---------2----------4-----------0----2---
D---2---------0----------4-----------2----0---
A---2---------0----------2-----------3----0---
E---0--------------------0--------------------

Guitar 2:

Em7
E--3------------0---------------3------------0--3-------
B-----3-3----3-----3---------------3-3----3-------------
G----------0----------3-----------------0---------------
D-----------------------0-------------------------------
A-------------------------------------------------------
E-------------------------------------------------------
This is my first tab, I think it's pretty accurate, and please don't cuss me out if it's wrong.




 
MarinaRuДата: Пятница, 23.03.2012, 18:40 | Сообщение # 2
Alex forever!
Группа: Администраторы
Сообщений: 597
Награды: 0
Репутация: 502
Статус: Offline
Believing



This song is easypeasy to play- so.....have fun.
Tuning 1/2 step down Eb Ab Db Gb Bb Eb
verse 1
A
I'm one man to make a difference
E
I'm one soul all persistence
D A E
In a dark world, just trying to make things right
A
Choices we weren't given
E
Any heroes, and our decision
D E
Is to stand up and fight for ourselves

[CHORUS:]
A
To be free
F#m
Is all we want to be
D Bm
When everything seems so far out of reach
A
But I know,
F#m
no matter where we go
D Dm
I'll never stop believing in me
Verse 2
A
Woke up bent and broken
E
Just to find that fate has spoken
D A
All I call out I call out for change
E
For every moment that remains
D
For every sinking stone to find its place
E
Long before they're washed away

[CHORUS:]
A
To be free
F#m
Is all we want to be
D Bm
When everything seems so far out of reach
A
But I know,
F#m
no matter where we go
D Dm
I'll never stop believing in me
Bm D
We've been waiting for too long
Bm D
We've been giving in to wrong
Bm D
And we've been broken to pieces one by one
E
We're gonna know
D
We're gonna know
A E
When the moment comes

[CHORUS:]
A
To be free
F#m
Is all we want to be
D Bm
When everything seems so far out of reach
A
But I know,
F#m
no matter where we go
D Dm
I'll never stop believing in me
Repeat chorus again and end


 
MarinaRuДата: Среда, 06.02.2013, 00:02 | Сообщение # 3
Alex forever!
Группа: Администраторы
Сообщений: 597
Награды: 0
Репутация: 502
Статус: Offline


Unstoppable



Intro:
e|----------7--5----------------7--5--8--7~~--|
B|-----5~~---------6~~----3--5~~--------------|
G|--------------------------------------------|
Am------F---------------G
Come and lay right on my bed,
Em-----------------Am
Sit and drink some wine
------F----------G
I'll try not to make you cry

And if you'd get inside my head,
Then you'd understand
Then you'd understand me
Why I've felt so alone,
Why I kept myself from love
And you became my favorite drug
So let me take you right now and swallow you down,
I need you inside
Chorus :
Am--------Dm---------Am------Dm
If weeeeeee had this night together
Am--------Dm----E
If weeeeeee had a moment to ourselves
Am--------Dm--------Am------Dm
If weeeeeee had this night together,
Am--------Dm-------E
then weeeeeee'd be unstoppable

Do you think that this is right, or is it really wrong
I know that this is what we've been wanting
And all this is burning in my soul, it fills up to my throat
It fills up till my heart is breaking

Chorus:

Now, we can both learn
Somehow, you'll see it's all we have
Love, it keeps us together
and I need love

When I wake up without you, knowing you're not there
I'm only feeling half as good
Well I'm gonna find a way
To wrap you in my arms, you make me feel alive

Chorus:


 
MarinaRuДата: Среда, 06.02.2013, 00:04 | Сообщение # 4
Alex forever!
Группа: Администраторы
Сообщений: 597
Награды: 0
Репутация: 502
Статус: Offline
Could It Be Any Harder



-----------0---------------------0-----------0---------------------
--------1---------------------3-----------1---------------0--------
-------------------------------------------------------2-----------
----3------------------3/5--------------------------2--------------
---------------------------------------3--------------------------
-------------------------------------------------------------------
Play after "if I only had one more day..." Am7
------------0--------------------0---------------------------------
-------------------------------------------------------------------
--------2------------------2---------------------------------------
-------------------------------------------------------------------
----0----------------0---------------------------------------------
-------------------------------------------------------------------
*repeat verse/chorus*
Solo
-------------------------------------------------------------------
--------------5--6--5----------------------------------------------
------5---7----------------5--7-------5----4---5-------------------
-------------------------------------------------------------------
-------------------------------------------------------------------
-------------------------------------------------------------------
------------------------------------------------7-8-7-------------
---------3/5---------------------------------8---------------------
----------------5----7----4---------------7------------------------
-------------------------------7-----5-----------------------------
-------------------------------------------------------------------
-------------------------------------------------------------------
-------------------------------------------------------------------
-------6/8---6--5--------------------------------------------------
---------------------7--7---5--------------------------------------
-------------------------------------------------------------------
-------------------------------------------------------------------
-------------------------------------------------------------------
Outro
Fsus2add7 G6 C Am7
------0----------------------0-------------0------------0----------
------1----------------------3-------------1------------1----------
------0----------------------0-------------0------------0----------
------3----------------------5-------------2------------2----------
-------------------------------------------3------------0----------
-------------------------------------------------------------------


 
MarinaRuДата: Среда, 06.02.2013, 00:06 | Сообщение # 5
Alex forever!
Группа: Администраторы
Сообщений: 597
Награды: 0
Репутация: 502
Статус: Offline

Nothing's Changed



---------------------------------------------------------------------------------
---------------------------------------------------------------------------------
--------8-8-8----------------8-8-8---------------7-7-7------------7-7-7----
---------------------------------------------------------------------------------
--------6-6-6----------------6-6-6---------------5-5-5------------5-5-5----
---------------------------------------------------------------------------------
---------------------------------------------------------------------------------
---------------------------------------------------------------------------------
------12-12-12-------12-12-12---------13-13-13-------12-12/10--------
--------------------------------------------------------------------------------
------10-10-10-------10-10-10---------11-11-11-------10-10/8---------
--------------------------------------------------------------------------------
and I remember....and I recall....
---------x-------------------------------x---------------------------------------
---------4-------------------------------x---------------------------------------
---------3-------------------------------4---------------------------------------
---------1-------------------------------3---------------------------------------
---------1-------------------------------1---------------------------------------
---------1-------------------------------0---------------------------------------
and I can see that, nothing's changed at all...
---------x-------------------------------x---------------------------------------
---------2-------------------------------9---------------------------------------
---------4-------------------------------8---------------------------------------
---------3-------------------------------6---------------------------------------
---------1-------------------------------6---------------------------------------
---------x-------------------------------6---------------------------------------
Bridge:
Bbm7 Cm7
---------1-------------------------------3---------------------------------------
---------2-------------------------------4---------------------------------------
---------1-------------------------------3--------------------------------------
---------3-------------------------------5---------------------------------------
---------1-------------------------------3---------------------------------------
---------x-------------------------------6---------------------------------------
Dbmaj7 Cm7(first ending)
---------1-------------------------------3---------------------------------------
---------4-------------------------------4---------------------------------------
---------2-------------------------------3---------------------------------------
---------3-------------------------------5---------------------------------------
---------1-------------------------------3---------------------------------------
---------x-------------------------------6---------------------------------------
(second ending)
---------------------------------------------------------------------------------
---------------------------------------------------------------------------------
---------13----12----10--------10---------12----------8---------------------
--------------------------------------------------------------------------------
---------11----10-----8----------8---------10----------6--------------------
--------------------------------------------------------------------------------
Solo: (bends and slides not indicated, but it's not hard to figure out)
---------------------------------------------------------------------------------
---------------------------------------------------------------------------------
-------------------------13------13--15----15--13-----13-------------------
-------------------11-----------------------------------------------------------
---11\------11-----------------------------------------------------------------
---------------------------------------------------------------------------------
---------------------------------------------------------------------------------
---------------------------------------------------------------------------------
---------------------------------------------------------------------------------
-----------13----15-----15--------13-----------------------------------------
----16------------------------------------16-----------------------------------
---------------------------------------------------------------------------------
---------------------------------------------------------------------------------
-------------------------14------16------16------------16---------16--------
---------13----15--------------------------------------------------------------
---------------------------------------------------------------------------------
---------------------------------------------------------------------------------
---------------------------------------------------------------------------------
---------14----13--------------------------------------------------------------
---------------------16--14----------------------------------------------------
-------------------------------------15---------13-----------------------------
---------------------------------------------------------------------------------
--------------------------------------------------------------------------------
--------------------------------------------------------------------------------
-------------------------------------------------------------------------------
-------------------------------------------------------------------------------
-------------------------------------------------------------------------------
------------------6-----8----8-----8-----8---8----6------------------------
--------6----8----------------------------------------------------------------
-------------------------------------------------------------------------------
-------------------------------------------------------------------------------
-------------------------------------------------------------------------------
---------------------------8----8------10-----10----10--------8-----------
--------6----8-----10--------------------------------------------------------
-------------------------------------------------------------------------------
-------------------------------------------------------------------------------
-------------------------------------------------------------------------------
------------------------------------------------------------------------------
---------------------13----13------15----13---13---13--------------------
-------13----15--------------------------------------------------------------
-------------------------------------------------------------------------------
-------------------------------------------------------------------------------
-------------------------------------------------------------------------------
---------------------------------------14-----14------14--------------------
-------15-------15-----15---------------------------------------------------
------------------------------------------------------------------------------
-------------------------------------------------------------------------------
-------------------------------------------------------------------------------


 
Форум » ALEX BAND » THE CALLING » Аккорды к песням
Страница 1 из 11
Поиск:

Вверх Бесплатный конструктор сайтов - uCoz